The Music of Burzum and the
Writings of Varg Vikernes

Burzum Tablature

    *THIS DOCUMENT IS BEST VIEWED WITH WORDPAD*
======================================================================
           -=BURZUM tablatures=-
The information contained in this document was compiled solely for www.burzum.com and
thus should only be available through www.burzum.com for everyone interested in learning
how to play Burzum riffs. All information may change without notice.

Hails!
The author, Vidar Ermesjø.
======================================================================
INFO:
======================================================================
Last updated: January 11th 2000

Compiled by: - Vidar Ermesjø      (vidar@burzum.com)

Main transcriber: - Vidar Ermesjø.

Addition trancripting help:

Credits: - Varg Vikernes for the music.   (contact Rainer or Klaas)
    - Klaas and Rainer for Burzum.com.  (klaas@burzum.com and rainer@burzum.com)

Notes: - So far it seems that Varg only used standard tuning for his songs. (E,A,D,G,B,E)
       - It is in my interest to expand this document to contain more than guiatar tablatures.
    Since Burzum is more than guitars, it would be great if one could include all
    instruments (guitar, bass, synth, drums (and vocals)) and maybe a proper
    description on how to recreate all the songs. Though this is a long way to go, it
    should be the goal.

TAB format: - I use the standard tab format with some "additions".
/ = slide up (6/9 - slide from the 6th fret up to the 9th fret)
\ = slide down (9\6 - slide from the 9th fret down to the 6th fret)
b = bend  (6b7 - bend the 6th fret to make it sound like the 7th fret - you alter the pitch of the string)
h = hammer on (6h8 - hit the 6th fret and tap the 8th fret with a free finger)
p = pull off (6p8 - place fingers on both the 6th and the 8th fret, hit the string (fret 8) and release the 8th fret)
t = tap  (6t - hit the note with your fingertip)
: = let ring      (6: - let note ring)

Here are the addition/extra information...

| = start/end of riff   (just to be sure you get it)
o = riff continued on another line
[ = start of sub-riff   (see below)
] = end of sub-riff   (see below)
x = chord/note multiplier  (see below)

In practice...
    (1)                 (2)                (3)
E|-------|[---------]---------[---------]|-----|--------------------------------------------
B|-------|[---------]---------[---------]|-----|--------------------------------------------
G|-------|[-----4---]---------[-----7---]|-----|--------------------------------------------
D|-5-----|[---4---4-]---4---5-[---7---7-]|-5-5-|--------------------------------------------
A|-3---4-|[-2-------]-2---3---[-5-------]|-3-3-|--------------------------------------------
E|-----2-|[---------]---------[---------]|-----|--------------------------------------------
   x5  x2   rep. x3             rep. x3      x2
(This is a riff-comment... ALL RIFF-COMMENTS ARE WRITTEN BELOW THE RIFF ITSELF!)

1. The 'x' and the number behind it acts as a "multiplier". Just hit the chord/note as many times as specified by the
   number.
2. Here we have two sub-riffs. A sub-riff starts with a '[' and ends with a ']', as seen above. Sub-riffs are ment to
   shorten down the main riff, as in compressing it, without loosing any information. When you face a sub-riff you should
   play/repeat it the number of times specified below, then you proceed. You should understand this by now. If not then
   just mail me and ask...
3. Why did I write it this way instead of writing the two identical power chords as one? Well, the answer is simple. I did
   this to specify a sense of rhythm or time. This is probably the best answer I can give. Anyway, rely on the song for
   rhythm and timeing, not the tab.

Please mail me at vidar@burzum.com if you have any input or questions...
======================================================================
CURRENT STATUS:
======================================================================
Track descriptions marked with '!' are not guitar tracks, but tabs might come in the future.

Album:          Status:   Last updated:

"Burzum/Aske"
Track 1  - "Feeble Screams From Forrests Unknown"    (unfinished)  27-06-1999
Track 2  - "Ea, Lord Of The Depths"      (unfinished)  27-06-1999
Track 3  - "Spell Of Destruction"       (unfinished)  17-08-1999
Track 4  - "Channeling The Power Of Souls Into A New God"  (!synth track)  xx-xx-xxxx
Track 5  - "War"         (unfinished)  01-06-1999
Track 6  - "The Crying Orc"       (not yet available) xx-xx-1999
Track 7  - "My Journey To The Stars"     (unfinished)  19-07-1999
Track 8  - "Dungeons Of Darkness"      (!ambient track)  xx-xx-xxxx
Track 9  - "Stemmen Fra Taarnet"       (unfinished)  28-03-1999
Track 10 - "Dominus Sathanas"       (unfinished)  xx-xx-1999
Track 11 - "A Lost Forgotten Sad Spirit"     (finished)   01-10-1999

"Det Som Engang Var"
Track 1  - "Den onde kysten"       (!synth track)  xx-xx-xxxx
Track 2  - "Key to the gate"       (unfinished)  xx-xx-1999
Track 3  - "En ring til aa herske"      (unfinished)  19-07-1999
Track 4  - "Lost Wisdom"       (unfinished)  03-06-1999
Track 5  - "Han som reiste"       (!synth track)  xx-xx-xxxx
Track 6  - "Naar himmelen klarner"      (unfinished)  19-07-1999
Track 7  - "Snu mikrokosmos tegn"      (finished?)   03-06-1999
Track 8  - "Svarte troner"       (!synth track)  xx-xx-1999

"Hvis lyset tar oss"
Track 1  - "Det som en gang var"      (unfinished)  07-06-1999
Track 2  - "Hvis lyset tar oss"      (not yet available) xx-xx-1999
Track 3  - "Inn i slottet fra droemmen"     (unfinished)  25-11-1999 *UPDATED*
Track 4  - "Tomhet"        (!synth track)  xx-xx-xxxx

"Filosofem"
Track 1  - "Dunkelheit"        (unfinished)  11-01-2000 *UPDATED*
Track 2  - "Jesus' Tod"        (unfinished)  07-11-1999 *UPDATED*
Track 3  - "Erblicket die Töchter des Firmaments"   (unfinished)  29-06-1999
Track 4  - "Gebrechlichkeit .i."      (not yet available) xx-xx-1999
Track 5  - "Rundgang um die transzendale Säule der Singularität" (!synth track)  xx-xx-xxxx
Track 6  - "Gebrechlichkeit .ii."      (not yet availalbe) xx-xx-1999

"Presumed Guilty" - compilation
Track 6  - "Ett Hvitt Lys Over Skogen"     (unfinished)  xx-xx-1999

======================================================================
DATA:
======================================================================

Album: "Burzum/Aske"
Song: "Feeble Screams From Forrests Unknown" (Track 1)
Notes: - Know the song.
  - Since last time I have replaced allot of old riffs because they sounded wrong played along with Varg.
Last updated: June 27th 1999

E|---------------------------------------------------------------|--------------------------
B|---------------------------------------------------------------|--------------------------
G|------------------------------------------------------------10-|--------------------------
D|-7--8--7--5--4--7-10--9--8--5--4--7--8--7--5--4--7-10--9--8--8-|--------------------------
A|-5--6--5--3--2--5--8--7--6--3--2--5--6--5--3--2--5--8--7--6----|--------------------------
E|---------------------------------------------------------------|--------------------------
   x3    x2             x2 x2       x3    x2             x2 x2

E|--------------------------------------------------------|---------------------------------
B|--------------------------------------------------------|---------------------------------
G|--------------------------------------------------------|---------------------------------
D|--------------------------------------------------------|---------------------------------
A|-8-8--9-10--8-8--9-10--8-8--7--6--6-6--7--8--6-6--7--8--|---------------------------------
E|-6-6--7--8--6-6--7--8--6-6--5--4--4-4--5--6--4-4--5--6--|---------------------------------
     x4 x3 x2   x4 x3 x2   x4 x3 x2   x4 x3 x2   x4 x3 x2
E|--------------------------|---------------------------------------------------------------
B|--------------------------|---------------------------------------------------------------
G|--------------------------|---------------------------------------------------------------
D|-8-8-----8-10---8-9--5-5--|---------------------------------------------------------------
A|-6-6--8--6--8---6-7--3-3--|---------------------------------------------------------------
E|------6-------------------|---------------------------------------------------------------
     x4 x3 x3 x11   x9   x9
(I am not completely sure about this. It fits quite well if you try to jam allong with Varg on the CD though.)

E|---------------------------------------|---------------------------------------|----------
B|---------------------------------------|--------------------------------------------------
G|---------------------------3-----3-----|--------------------------------------------------
D|---3---2-------3---2-----3---4-----4---|--------------------------------------------------
A|-----3-----------3-------------5-----5-|--------------------------------------------------
E|-1-------4-3-1-------4-3---------------|--------------------------------------------------
(That crazy riff, though it is most likely wrong (so just laught at it) - maybe I am starting at the wrong note or... A vox remover would be nice.)

E|-----|---------|--------------------------------------------------------------------------
B|-----|---------|--------------------------------------------------------------------------
G|-----|---------|--------------------------------------------------------------------------
D|-5---|-5-------|--------------------------------------------------------------------------
A|-3---|-3---4---|--------------------------------------------------------------------------
E|-----|-----2---|--------------------------------------------------------------------------
   x32   x16 x16
(The multiplier number here is a hard guess.)
 

Album: "Burzum/Aske"
Song: "Ea, Lord Of The Depths" (Track 2)
Notes: - Know the song.
       - This will be finished soon I guess
Last updated: June 27th 1999

                         (1)                          (2a - guitar 1) (2b - guitar 2, not shure if this exists)
E|-------------------------------------------------|-------------------|-------|------------
B|----------4--3-----------------------------------|-------------------|-------|------------
G|-------5--------4--------------------------------|-------------5--3--|-------|------------
D|----5--------------4-----------1-----------------|-6--4-----5--------|-6--5--|------------
A|-3--------------------2-----3-----2------5--6--5-|-------5-----------|-4--3--|------------
E|-------------------------4----------4-3----------|-------------------|-------|------------
   x2 x2 x2 x2 x2 x2 x2 x2 x2 x2 x2     x2 x2 x2 x2  x4 x2 x2 x4 x2 x2   x8 x8

           (3a - guitar 1)                  (3b - guitar 2)
E|----------------------------------|-------------------------|-----------------------------
B|----------------------------------|-------------------------|-----------------------------
G|----------------------------------|-------------------------|-----------------------------
D|----5--6-----------5--6-----7--6--|-5--6--------5--6--6--7--|-----------------------------
A|-3--------6--5--3--------4--------|-3--3--6--5--3--3--4--4--|-----------------------------
E|----------------------------------|-------4--4--------------|-----------------------------
   x4 x2 x2 x6 x2 x4 x2 x2 x4 x2 x2   x5 x3 x5 x3 x5 x3 x5 x3

                                                               (4)
E|------------------------------------------------------------------------------------------
B|------------------------------------------------------------------------------------------
G|--------------------------------8--11-10-8-10-11-10---------------------------------------
D|-10--13-12-10-13-12-10-13-12-10---------------------10-11-10--13-12-10-13-12-10-13-12-10--
A|------------------------------------------------------------------------------------------
E|------------------------------------------------------------------------------------------
                                     (4+)
E|----------------------------------|----|--------------------------------------------------
B|----------------------------------|----|--------------------------------------------------
G|----------------------------------|----|--------------------------------------------------
D|-11--13--14--13--11--13--14-13-12-|-10-|-------------------------------------------------
A|----------------------------------|----|--------------------------------------------------
E|----------------------------------|----|--------------------------------------------------
(Not 100% sure about this one.)

Album: "Burzum/Aske"
Song: "Spell Of Destruction"
Notes: - Listen to the song for better timing.
Last updated: August 17th 1999

E|--------------------------------------------------------------|---------------------------
B|-----1-------1------------1-------1-------1-------1---1---1---|---------------------------
G|---5---5---5---5----5---5---5---4---4---4---4---4---4---4---4-|---------------------------
D|-3-------3-------3----3-------2-------2-------2---------------|---------------------------
A|--------------------------------------------------------------|---------------------------
E|--------------------------------------------------------------|---------------------------

E|----------------------------------------------------------------|-------------------------
B|------1-----1-------1---1---1-------1-------1-------1---1---1---|-------------------------
G|----5-----5---5---5---5---5---5---4---4---4---4---4---4---4---4-|-------------------------
D|-3------3-------3---------------2-------2-------2---------------|-------------------------
A|----------------------------------------------------------------|-------------------------
E|----------------------------------------------------------------|-------------------------

E|-----------------------------------------------------------------|------------------------
B|-------1-----1-------1---1---1-------1-------1-------1-------1---|------------------------
G|-----5-----5---5---5---5---5---5---4---4---4---4---4---4---4---4-|------------------------
D|--3------3-------3---------------2-------2-------2-------2-------|------------------------
A|-----------------------------------------------------------------|------------------------
E|-----------------------------------------------------------------|------------------------

E|-------------------------------------------2-|--------------------------------------------
B|---------------------------------2---2-2-----|--------------------------------------------
G|---1------------1--------------2---2-----2---|--------------------------------------------
D|-----3---3----3---3---3------4---------------|--------------------------------------------
A|-------3----3-------3------4-----------------|--------------------------------------------
E|-1-----------------------2-------------------|--------------------------------------------

E|-----------------------------------------------------|----|-------------------------------
B|-----------------------------------------------------|----|-------------------------------
G|----6--5--7-6----6--5--7-6----6--5---------6--5------|----|-------------------------------
D|-3------------3------------4--------7-6-4--------7-6-|-\3-|-------------------------------
A|-----------------------------------------------------|----|-------------------------------
E|-----------------------------------------------------|----|-------------------------------
 
 

Album: "Burzum/Aske"
Song: "War"
Notes: - Listen to the song for better timing.
       - This is a fast song.
Last updated: June 1st 1999

E|----------------------------------------------------------|-------------------------------
B|----------------------------------------------------------|-------------------------------
G|----------------------------------------------------------|-------------------------------
D|----------------------------------------------------------|-------------------------------
A|----------------------------------------------------------|-------------------------------
E|-0-7-8-0-5-7-3-5-0-2-3-5-3-2--0-7-8-0-5-7-0-3-5-0-2-3-2-3-|-------------------------------

E|------------------------------------------------------------------------------------------
B|------------------------------------------------------------------------------------------
G|------------------------------------------------------------------------------------------
D|------------------------------------------------------------------------------------------
A|------------------------------------------------------------------------------------------
E|-0-7-8-0-8-10-0-10-12-0-8-10--------------------------------------------------------------

Playorder:

Album: "Burzum/Aske"
Song: "My Journey To The Stars" (Track 7)
Notes: - Know the song.
  - Dedicated to Rainer ;)
       - Removed the old "shit", though I am not sure the new "shit" is in the right key. I will be sure when I have a
    jamming session with "Varg".
Last updated: June 19th 1999

            (x1a)          (x1b)
E|------------------------|------|----------------------------------------------------------
B|------------------------|------|----------------------------------------------------------
G|------------------------|------|----------------------------------------------------------
D|------------------------|------|----------------------------------------------------------
A|----5--2-------3---3----|-5--3-|----------------------------------------------------------
E|-3--------3--5---5----5-|-3--5-|----------------------------------------------------------
   x2 x2 x2 x2 x2    x2 x2  x8 x8

                         (x2a)                                    (x2b)
E|-----------------------------------------------------|--------------------------|---------
B|-----------------------------------------------------|--------------------------|---------
G|-----0----------0--------------0---------------------|--------------------------|---------
D|---2---2------2---2----------2---2-------0-------0---|-2--2--2--2-3--2--2--3--3-|---------
A|---------2----------2---2----------2---2---2---2---2-|-2--2--2--2-3--2--2--3--3-|---------
E|-0----------0---------0----0---------0-------0-------|-0--0--0--0-1--0--0--1--1-|---------
                                                                    x2
                     (x3a)                       (x3b)    (end)
E|[---------][---------][---------]---------|-------------|---|-----------------------------
B|[---------][---------][---------]---------|-------------|---|-----------------------------
G|[-----0---][-----0---][-----0---]-0---0---|-------------|-0-|-----------------------------
D|[---2---2-][---4---4-][---3---3-]---3---3-|-2----4----3-|-2-|-----------------------------
A|[-2-------][-4-------][-3-------]---------|-2----4----3-|-2-|-----------------------------
E|[---------][---------][---------]---------|-0----0----0-|-0-|-----------------------------
    rep. x2    rep. x2    rep. x3

Album: "Burzum/Aske"
Song: "Stemmen Fra Taarnet" (Track 9)
Notes: - Listen to the song for better timing.
Last updated: March 28th 1999

         (1)                      (2)                          (3)
E|-------------------|---------------------------|---------------------------------|--------
B|-------------------|---------------------------|---------------------------------|--------
G|-6---6---6---6---6-|-6--5--6--8--9--6--5--6--2-|-3--3--3--3--3--3--4--6--4--3--4-|--------
D|-6---6---6---6---6-|-6--5--6--8--9--6--5--6--2-|-3--3--4--3--4--3--4--6--4--3--4-|--------
A|-4---4---4---4---4-|-4--3--4--6--7--4--3--4--0-|-1--1--1--1--1--1--2--4--2--1--2-|--------
E|-------------------|---------------------------|---------------------------------|--------
                       x3 x2 x4 x2    x3 x2 x3 x2  x2 x5 x2 x2 x2    x4 x2 x2 x2 x2

              (3g2)                               (4)
E|---------------------------------|-------------------------------|------------------------
B|---------------------------------|-------------------------------|------------------------
G|-5--5--6--5--6--5--6--8--6--5--6-|-3--3--3--4--3--3--3--3--6--5--|------------------------
D|-3--3--3--3--3--3--4--6--4--3--4-|-3--4--3--4--3--3--4--3--6--5--|------------------------
A|---------------------------------|-1--1--1--2--1--1--1--1--4--3--|------------------------
E|---------------------------------|-------------------------------|------------------------
   x2 x5 x2 x2 x2    x4 x2 x2 x2 x2  x3       x5    x3       x3 x2

Playorder:

1st = 1 x1 (fade in with drums)
2nd = 2 x4
3rd = 2 x2 (start singing)
4th = 3 x3
5th = 4 x2

Album: "Burzum/Aske"
Song: "Dominus Sathanas" (Track 10)
Notes: - Know the song.

E|----------------------------------|---------------------------------|---------------------
B|----------------------------------|---------------------------------|---------------------
G|----------------------------------|---------------------------------|---------------------
D|-------------------------4-5-4----|-------------------------4-5-4---|---------------------
A|---2-3-2-----------2-3-2--------3-|---2-3-2-2---------2-3-2-------3-|---------------------
E|-0-------3---3-2-1----------------|-0-------3---3-2-1---------------|---------------------

E|------------------------------------------------------------------------------------------
B|------------------------------------------------------------------------------------------
G|------------------------------------------------------------------------------------------
D|------------------------------------------------------------------------------------------
A|-2--2--3--2-3-2-0-2-----------------------------------------------------------------------
E|-0----------------------------------------------------------------------------------------

Playorder:

Album: "Burzum/Aske"
Song: "A Lost Forgotten Sad Spirit" (Track 11)
Notes:  - FINISHED!: Bass and drums (hopefully) will be added later
  - This is the version featured on the "Aske" EP.
  - Know the song.
Last updated: October 1st 1999

  (1)            (2)                   (3)
E|------------------|---------|----------------------------------|--------------------------
B|------------------|---------|----------------------------------|--------------------------
G|------------------|---------|----------------------------------|--------------------------
D|-4--5--7--6--7--6-|-4--5--7-|-9--10-9--10-9--10-9--10-9--11-10-|--------------------------
A|-2--2--5--4--4--4-|-2--3--5-|-7--7--7--8--8--8--7--7--7--9--8--|--------------------------
E|------------------|---------|----------------------------------|--------------------------
   x9 x7 x9 x3 x2 x2  x9 x4 x3  x5 x2    x5 x2    x5 x2    x4 x4

              (4)                              (5)
E|----------------------------|------------------------------------|------------------------
B|----------------------------|------------------------------------|------------------------
G|-9--5-----------9--5--------|-------------5--------------5--4--5-|------------------------
D|-9--5--4--5--7--9--5--4--3--|-2--4--4--3--5--2--2--4--3--5--4--5-|------------------------
A|-7--3--4--5--7--7--3--4--3--|-2--2--4--3--3--2--4--4--3--3--2--3-|------------------------
E|-------2--3--5--------2--1--|-0--0--2--1-----0--0--2--1----------|------------------------
   x5 x2 x6 x2    x5 x2 x4 x4   x4 x2 x2 x6 x3 x3 x2 x2 x6
(4: The first time this riff is played you can probably drop the union [the note one octave higher than thechord] of
every chord. Just listen to the record and learn.)

           (6)
E|---------------------------------|--------------------------------------------------------
B|---------------------------------|--------------------------------------------------------
G|---------------------------------|--------------------------------------------------------
D|-4--5-4-5--7--9--4--5-4-5--7-10--|--------------------------------------------------------
A|-2--3-2-3--5--7--2--3-2-3--5--8--|--------------------------------------------------------
E|---------------------------------|--------------------------------------------------------
   x5        x5 x3 x5        x5 x3

                  (7)                                          (8)
E|--------------------------------------|------------------------------------------------|--
B|--------------------------------------|------------------------------------------------|--
G|-4----7----4---------4----7----6----5-|-4--4--------4--4--------4--4--------6--6--5--5-|--
D|-4----7----4----5----4----7----6----5-|-4--4--5--5--4--4--5--5--4--4--5--5--6--6--5--5-|--
A|-2----5----2----5----2----5----4----3-|-2--2--5--5--2--2--5--5--2--2--5--5--4--4--3--3-|--
E|----------------3---------------------|-------3--3--------3--3--------3--3-------------|--
                                          x2 x3 x2 x3 x2 x3 x2 x3 x2 x3 x2 x3 x2 x3 x2 x3

  (9)
E|---|
B|---|
G|-0-|
D|-4-|
A|-2-|
E|---|

Structure:

Riff:   Time:  Notes:
1st = 1 x4  (00:00)
2nd = 2 x4  (00:30)
3rd = 3 x2  (00:45) ("WhaaaaaaaaaaaH!")
4th = 1 x4  (00:59) ("The fire in the sky is extinguished...")
5th = 2 x4  (01:28) ("Exists no longer...")
6th = 3 x6  (01:42) ("AaaaaaaaaaaaaH!")
7th = 4 x6  (02:24) (Slow part stars)
8th = 5 x4  (04:16)
9th = 4 x4  (04:48)
10th = 5 x2  (05:51)
11th = 3 x2  (06:22) ("A bed of eternal sleep", Slow part ends.)
12th = 6 x4  (06:37)
13th = 3 x2  (07:06) ("AaaaaaaaaaaaaH!")
14th = 1 x4  (07:20) ("The dreams of the human in sleep...")
15th = 2 x10 (07:50) (Ends 08:25)
16th = 7 x2  (08:29) (Slow tempo..)
17th = 8 x4  (08:59) (Mid tempo..)
18th = 7 x2  (10:12) ("DOOOooooomed..", Slow tempo.)
19th = 9 x1  (11:41) (Let ring..)
End   (12:52)

Album: "Det Som Engang Var"
Song: "Key to the gate" (Track 2)
Notes: - Know the song.
Last updated: May 18th 1999

E|-------------------------------|-------------------------------------------------|--------
B|-------0-----------0-----------|-------0-----------------------0-----------------|--------
G|-----0---0-------0---0-------0-|-----0---0-------0-----------0---0-------0-------|--------
D|---7-------7---7-------7---7---|---4-------4---2---2---5---4-------4---2---------|--------
A|-6-----------6-----------6-----|-4-----------2-------5---4-----------2-----------|--------
E|-------------------------------|-------------------------------------------3-2-0-|--------

Album: "Det Som Engang Var"
Song: "En ring til aa herske" (Track 3)
Notes: - Know the song.
  - Redone since last time.
Last updated: July 19h 1999

             (1)                               (2)
E|----------------------------|-------------------------------------|-----------------------
B|----------------------------|-------------------------------------|-----------------------
G|----------------------------|-------------------------------------|-----------------------
D|----------------------------|-------------------------------------|-----------------------
A|-2--3--2--4-3-2--3--2-4-5-2-|-2--3-3--2--4-3-2-2--3-3--2-2--4-5-2-|-----------------------
E|-0--0--0--2-1-0--0--0-2-3-0-|-0--0-0--0--2-1-0-0--0-0--0-0--2-3-0-|-----------------------
                x2              x2   x2 x3       x2   x2   x2

          (3)                          (4)
E|---------------------|[---------][---------][---------]|----------------------------------
B|---------------------|[---------][---------][---------]|----------------------------------
G|---------------------|[-------0-][-------0-][-------0-]|----------------------------------
D|---------------------|[-----2---][-----5---][-----4---]|----------------------------------
A|-2--3--2--2--4--5--2-|[---2-----][---5-----][---4-----]|----------------------------------
E|-0--1--0--0--2--3--0-|[-0-------][-3-------][-2-------]|----------------------------------
   x2 x2 x2 x2 x2 x2      rep. x8    rep. x4    rep. x4
(3: This riff relies heavily on bass and voice to become less repetive. It is great neverless.)

                 (5)
E|--------------------------------------|---------------------------------------------------
B|--------------------------------------|---------------------------------------------------
G|--------------------------------------|---------------------------------------------------
D|-2----2----2----3----2----2----2----3-|---------------------------------------------------
A|-2----2----2----3----2----3----2----3-|---------------------------------------------------
E|-0----1----0----2----0----1----0----2-|---------------------------------------------------

                  (6)
E|---------[---------]---------[---------]|-------------------------------------------------
B|-------0-[-------0-]-------0-[-------0-]|-------------------------------------------------
G|-----0---[-----0---]-----2---[-----2---]|-------------------------------------------------
D|---4-----[---4-----]---5-----[---5-----]|-------------------------------------------------
A|---------[-2-------]---------[-3-------]|-------------------------------------------------
E|-0-------[---------]-0-------[---------]|-------------------------------------------------
             rep. x7             rep. x7
(This is the intense build-up.)

                   (7)
E|----------------------------------------|-------------------------------------------------
B|----------------------------------------|-------------------------------------------------
G|-0----0----0----0----4----4----2----2---|-------------------------------------------------
D|-2-2--2-2--2-2--2-2--2-2--2-2--2-2--2-2-|-------------------------------------------------
A|-2-2--2-2--2-2--2-2--2-2--2-2--2-2--2-2-|-------------------------------------------------
E|-0-0--0-0--0-0--0-0--0-0--0-0--0-0--0-0-|-------------------------------------------------
     x6   x6   x6   x6   x6   x6   x6   x6

Album: "Det Som Engang Var"
Song: "Lost Wisdom" (Track 4)
Notes: - Know the song.
       - Slide alot.
Last updated: June 3rd 1999

                    (1)                                (2)
E|-------------------------------------------|---------------------|------------------------
B|-------------------------------------------|---------------------|------------------------
G|-------------------------------------------|---------------------|------------------------
D|-------------------------------------------|-2--5--5--4--4--5--4-|------------------------
A|----2----------------------2---------------|-2--2--2--3--3--3--3-|------------------------
E|-0-----0--3--0-0--3--4--0-----0--3--1--2b3-|---------------------|------------------------
                                              x4 x2 x3 x2 x6

E|----------------------------------------|----------------------------------------|--------
B|----------------------------------------|----------------------------------------|--------
G|----------------------------------------|----------------------------------------|--------
D|----------------------------------------|----------------------------------------|--------
A|-7------------------7-------------------|-------10-9----------------10-9---12-10-|--------
E|-----8-8\2-2--3-4-------8--8\2-2--3-2-3-|-7/8\7-------2--3-4--7/8\7------2-------|--------

E|---------------------------------------|----------------------------------------------|---
B|---------------------------------------|----------------------------------------------|---
G|---------------------------------------|----------------------------------------------|---
D|---------------------------------------|----------------------------------------------|---
A|-7---10-10\4-4--5-7---10-10\4-4--5-4-5-|-2--5--5--4--4--5-4---2--5--5--4--4-4/10 10-9-|---
E|---------------------------------------|----------------------------------------------|---
                                           x4 x2 x3 x2 x6       x4 x2 x3 x2 x6

E|---|
B|---|
G|---|
D|-2-|
A|-2-|
E|---|

Album: "Det Som Engang Var"
Song: "Naar himmelen klarner" (Track 6)
Notes: - Know the song.
       - Might be in the wrong key.
Last updated: July 19th 1999

E|----------------------------------------|------------------------------------|------------
B|----------------------------------------|------------------------------------|------------
G|---------------4--------------------4---|---------------4--------------------|------------
D|-----0-----5-----5--------0-----5-----5-|-----0-----5-----5--------0---5---7-|------------
A|---2---2-3---3-----3----2---2-3---3-----|---2---2-3---3-----3----2---2-3---5-|------------
E|-0--------------------0-----------------|-0--------------------0-------------|------------
                                                                         x2

E|------------------------------------------------------------------|-----------------------
B|------------------------------------------------------------------|-----------------------
G|-------0-----4---------0----------------0-----4---------0---------|-----------------------
D|-----4-----5---5-----4----------------4-----5---5-----4-----------|-----------------------
A|---2-----3---------2-------5---4----2-----3---------2-------5---7-|-----------------------
E|-0---------------0-------3---2----0---------------0-------3---5---|-----------------------

Album: "Det Som Engang Var"
Song: "Snu mikrokosmos tegn" (Track 7)
Duration: 09:33
Notes: - Know the song.
       - This is basically finished, though I believe there is a riff overlaping riff 4. I doubt some of the riffs too.
Last updated: June 3rd 1999

      (1)                (2)                           (3)
E|------------|------------------------|---------------------------------|-----------------
B|------------|------------------------|---------------------------------|-----------------
G|------------|------------------------|---------------------------------|-----------------
D|------------|-4--5--4--5--5--7--5--4-|-4-----------------4-------------|-----------------
A|-0--4--5--3-|-2--2--2--2--3--3--3--3-|-2--4--5--4--5--7--2--4--5--4--3-|-----------------
E|-2--2--3--3-|------------------------|----2--3--2--3--5-----2--3--2--1-|-----------------
   x8 x8 x8 x8  x5 x3 x5 x3 x5 x3 x5 x3  x5 x2    x5 x2    x5 x2    x5

            (4)                                 (5)
E|-------------------------|-------------------------------------------------|--------------
B|-----5:-----------5:-----|-------------------------------------------------|--------------
G|-----0:--4:-------0:-----|-----0-----0---------0-----0---------0-----0-----|--------------
D|-4:--2:--0:---4:--2:--2:-|---0-----0-----0---0-----0-----0---0-----1-----0-|--------------
A|-0:------2:---0:------0:-|-2-----2-----2---2-----2-----2---3-----3-----3---|--------------
E|-2:-----------2:------1:-|-------------------------------------------------|--------------

                               (6)
E|-----------------------------------------------------------------|------------------------
B|-----------------------------------------------------------------|------------------------
G|-----0-------0-------0-------0-------0-------0-------0-------0---|------------------------
D|---0---0---0---0---0---0---0---0---0---0---0---0---0---0---0---0-|------------------------
A|-2-------2-------2-------2-------5-------4-------4-------4-------|------------------------
E|-----------------------------------------------------------------|------------------------

                                (7)
E|------------------------------------------------------------------|
B|------------------------------------------------------------------|
G|-----0-------0-------0--------0-------0-------0-------0-------0---|
D|---0---0---0---0---0---0----0---0---0---0---0---0---0---0---0---0-|
A|-7-------9-------7-------10-------7-------9-------7-------3-------|
E|------------------------------------------------------------------|

Structure:
Riff:   Time:  Notes:
1st  = 1 x4  (00:00) (Drums start.)
2nd  = 2 x4  (00:30)
3rd  = 1 x4  (00:58)
4th  = 3 x5  (01:27)
5th  = 1 x4  (02:01)
6th  = 2 x4  (02:29)
7th  = 1 x4  (02:57)
8th  = 4 x12  (03:26) (Drums stop. Drums start with 3rd rep.)
9th  = 5 x4  (04:51) (Drums stop.)
10th = 6 x4  (05:12) (Moaning starts.)
11th = 5 x4  (05:40)
12th = 6 x8  (06:00) ("Puster". Choir start.)
13th = 7 x4  (06:54) ("Til helvete")
14th = 6 x6  (07:22)
15th = 5 x4  (08:02)
16th = 4 x11 (08:22) (Drums start with 3rd rep. Fade out from 5th rep. to 11th rep.)

Album: "Hvis lyset tar oss"
Song: "Det som en gang var" (Track 1)
Notes: - Know the song.
Last updated: June 7th 1999

E|-----------------------------------------------------|------------------------------------
B|-----------------------------------------------------|------------------------------------
G|-----------------------------------------------------|------------------------------------
D|-4-4-6-6/7-7-6-4-4-6-6/9-9-7-4-4-6-6/7-7-6-5-5/9-9-7-|------------------------------------
A|-2-2-4-4/5-5-4-2-2-4-4/7-7-5-2-2-4-4/5-5-4-3-3/7-7-5-|------------------------------------
E|-----------------------------------------------------|------------------------------------
       x2    x2      x2    x2      x2    x2  x3    x2

Album: "Hvis lyset tar oss"
Song: "Inn i slottet fra droemmen" (Track 3)
Notes: - Know the song.
  - Completely redone.
Last updated: November 25th 1999

    (1g1)
E|-[-----]-|---------------------------------------------------------------------------------
B|-[-----]-|---------------------------------------------------------------------------------
G|-[-----]-|---------------------------------------------------------------------------------
D|-[-----]-|---------------------------------------------------------------------------------
A|-[-3-6-]-|---------------------------------------------------------------------------------
E|-[-1-4-]-|---------------------------------------------------------------------------------
   rep. x8

   (1g2)        (2g2)              (3g2)
E|-[-----]-|--------------|-------4:--------------|-----------------------------------------
B|-[-----]-|------11---12-|-3:----3:-------1:--2:-|-----------------------------------------
G|-[-----]-|------13---14-|-6:----6:-------3:--3:-|-----------------------------------------
D|-[--10-]-|-12---12---13-|-6:----6:-------3:--3:-|-----------------------------------------
A|-[--8--]-|-10---10---11-|-4:-------------1:--1:-|-----------------------------------------
E|-[-----]-|--------------|-----------------------|-----------------------------------------
      x8    x15  x11  x4

E|------------------------------------------------------------------------------------------
B|-------6-7--------8-9---------------------------------------------------------------------
G|-----8-----8----10---10-------------------------------------------------------------------
D|---8----------10--------------------------------------------------------------------------
A|-6-----------8----------------------------------------------------------------------------
E|------------------------------------------------------------------------------------------

Album: "Filosofem"
Song: "Dunkelheit" (Track 1)
Note: - Know the song.
 - Completely redone.
Last updated: January 11th 2000

(x)g1 = guitar 1 (arpeggios)
(x)g2 = guitar 2 (chords)

  (0g2)
E|-----|------------------------------------------------------------------------------------
B|-----|------------------------------------------------------------------------------------
G|-----|------------------------------------------------------------------------------------
D|-9t:-|------------------------------------------------------------------------------------
A|-7t:-|------------------------------------------------------------------------------------
E|-----|------------------------------------------------------------------------------------

                            (1g1)
E|-------0-----------------------------0-----------------------|----------------------------
B|-----0---0---0-----0---------------0---0---0-----0---0-------|----------------------------
G|---0-------0-----3---3-0---0-----0-------0-----6---0---3---0-|----------------------------
D|-2-------------1---------4---4-2-------------4-----------1---|----------------------------
A|-------------------------------------------------------------|----------------------------
E|-------------------------------------------------------------|----------------------------

                            (1g2)
E|-------------------------------------------------------------|----------------------------
B|-------------------------------------------------------------|----------------------------
G|-------------------------------------------------------------|----------------------------
D|-9:------------8:------4:------9:-----------11:-----8:-------|----------------------------
A|-7:------------6:------2:------7:------------9:-----6:-------|----------------------------
E|-0:----------------------------0:----------------------------|----------------------------

                            (2g2)
E|-------------------------------------------------------------|----------------------------
B|-------------------------------------------------------------|----------------------------
G|-------------------------------------------------------------|----------------------------
D|-9----9-9------8-8-----4-4-----9----9-9-----11-11---8-8------|----------------------------
A|-7----7-7------6-6-----2-2-----7----7-7------6--6---6-6------|----------------------------
E|-------------------------------------------------------------|----------------------------
   x2     x2       x2      x2    x2     x2        x2    x2

                                          (2g1)
E|-----0----------0----------0----------0------------0------------0---------0---------o-----
B|-------0----------0----------0----------0------------0------------0---------0-------o-----
G|---------0---0------0----------0---0------0------------0------------0---------0---0-o-----
D|-2---------2----------2----------2----------2------------2---0--------2---------2---o-----
A|------------------------------------------------3----------3------------------------o-----
E|------------------------------------------------------------------------------------o-----

o-0----------0-----------0-|----------------------------------------------------------------
o---0----------0-------0---|----------------------------------------------------------------
o-----0----------0---0-----|----------------------------------------------------------------
o-------2----------4-------|----------------------------------------------------------------
o--------------------------|----------------------------------------------------------------
o--------------------------|----------------------------------------------------------------

                                         (3g2)
E|------------------------------------------------------------------------------------o-----
B|------------------------------------------------------------------------------------o-----
G|------------------------------------------------9:----------------------------------o-----
D|-9:--------------------------------------------10:----------------------9:----------o-----
A|-7:---------------------------------------------7:----------------------7:----------o-----
E|-0:---------------------------------------------8:----------------------0:----------o-----

o--------------------------|----------------------------------------------------------------
o--------------------------|----------------------------------------------------------------
o--------------------------|----------------------------------------------------------------
o--------------------------|----------------------------------------------------------------
o--------------------------|----------------------------------------------------------------
o--------------------------|----------------------------------------------------------------
       (4g2)
E|-----------------|------------------------------------------------------------------------
B|-----------------|------------------------------------------------------------------------
G|-----------------|------------------------------------------------------------------------
D|-----------------|------------------------------------------------------------------------
A|-5--4--4-5--2--2-|------------------------------------------------------------------------
E|-3--2--2-3--0--0-|------------------------------------------------------------------------
   x2 x2   x2 x2

             (xg1)                              (xg1)
E|--------0-------------0-------|---------------------------------|-------------------------
B|------0---0---0-----0---0-----|-------0---------------5---------|-------------------------
G|----0-------0-----0-------0---|-----0---0-----------4---4-------|-------------------------
D|-2--------------3-----------3-|---4-------4---4---5-------5---5-|-------------------------
A|------------------------------|-2-----------2---3-----------3---|-------------------------
E|------------------------------|---------------------------------|-------------------------

                                                (xg2)
E|------------------------------|---------------------------------|-------------------------
B|------------------------------|---------------------------------|-------------------------
G|------------------------------|---------------------------------|-------------------------
D|------------------------------|-4:----------4:--5:--------------|-------------------------
A|------------------------------|-2:----------2:--3:----------5:--|-------------------------
E|------------------------------|-----------------------------3:--|-------------------------
 

                                (xg1)
E|[---------------------------------]---------------------------------|---------------------
B|[---------------------------------]-------------------------0---0---|---------------------
G|[-------0---------------0---------]-------0---------------0---0---0-|---------------------
D|[-----0---0-----------2---2-------]-----0---0-----------2-----------|---------------------
A|[---4-------4---4---2-------2---2-]---4-------4---4---2-------------|---------------------
E|[-2-----------2---0-----------0---]-2-----------2---0---------------|---------------------
               rep. x3

              (xg2)
E|--------------------------------|---------------------------------------------------------
B|--------------------------------|---------------------------------------------------------
G|--------------------------------|---------------------------------------------------------
D|--------------------------------|---------------------------------------------------------
A|-4:----------4:---2:---------5:-|---------------------------------------------------------
E|-2:----------2:---0:---------3;-|---------------------------------------------------------
 
 

Structure:
Riff:     Time:  Notes:
1st = 0g2               (x1) (00:02)
2nd = 1g1 + 1g2       (x2) (00:04)
3rd = 1g1 + (1g2) + 2g2 (x2) (00:22)
4th = 2g1 + 3g2  (x1) (00:40)
5th = 4g2    (01:00)

Album: "Filosofem"
Song: "Jesus' Tod" (Track 2)
Note: - Know the song.
 - Redid everything (I am not shure if it starts with an E or an F - I am guessing F, but please give some input).
Last updated: November 7th 1999

                (1g1)
E|-------------8-----8---7-----7---------|--------------------------------------------------
B|----------9-----9----9----8-----8-7-10-|--------------------------------------------------
G|-------10------------------------------|--------------------------------------------------
D|----10---------------------------------|--------------------------------------------------
A|-8-------------------------------------|--------------------------------------------------
E|---------------------------------------|--------------------------------------------------
   x2 x2 x2 x2 x3 x2 x2  x3 x5 x3 x2 x2
                (1g2)
E|---------------------------------------|--------------------------------------------------
B|---------------------------------------|--------------------------------------------------
G|---------------------------------------|--------------------------------------------------
D|---------------------------------------|--------------------------------------------------
A|-3-------------------------------------|--------------------------------------------------
E|-1-------------------------------------|--------------------------------------------------

                   (2g1)
E|-----------------------------------------------|------------------------------------------
B|-----------9-11--------------------9--------11-|------------------------------------------
G|--------10------12--------------10----13-12----|------------------------------------------
D|----10-------------12--------10----------------|------------------------------------------
A|-8--------------------10--8--------------------|------------------------------------------
E|-----------------------------------------------|------------------------------------------
   x2 x2 x2 x2 x2 x2 x2 x2  x2 x2 x2 x2 x4 x2 x2

                   (2g2)
E|-----------------------------------------------|------------------------------------------
B|-----------------------------------------------|------------------------------------------
G|-----------------------------------------------|------------------------------------------
D|-3------------5-----------3-----------6--5-----|------------------------------------------
A|-3------------5-----------3-----------6--5-----|------------------------------------------
E|-1------------3-----------1-----------4--3-----|------------------------------------------

         (3g1)
E|-------------------------|----------------------------------------------------------------
B|-------------------------|----------------------------------------------------------------
G|---5---6------5--4-----4-|----------------------------------------------------------------
D|-3--------4-3-------2----|----------------------------------------------------------------
A|-------------------------|----------------------------------------------------------------
E|-------------------------|----------------------------------------------------------------
     x10 x2 x2  x8 x2 x2 x2

Album: "Filosofem"
Song: "Erblicket die Töchter des Firmaments" (Track 3)
Note: - Know the song.
Last updated: May 29th 1999

E|------------------------------|-----------------------------------------------------------
B|------------------------------|-----------------------------------------------------------
G|------------------------------|-----------------------------------------------------------
D|-5--4--5--2--2--2--2--2--2--2-|-----------------------------------------------------------
A|-3--2--3--2--2--2--2--2--2--2-|-----------------------------------------------------------
E|----------0--0--0--0--0--0--0-|-----------------------------------------------------------
      x2    x3 x2 x3 x2 x3 x2 x3

E|------------------------------------------------------------------------|-----------------
B|------------------------------------------------------------------------|-----------------
G|------------------------------------------------------------------------|-----------------
D|-9--9--9--9-7--7--7--7-12-11-12-5--5--5--5-4--5--4--5--4--5--4--5-5-4-5-|-----------------
A|-7--7--7--7-5--5--5--5-10--9-10-3--3--3--3-2--3--2--3--2--3--2--3-3-2-3-|-----------------
E|-0--0--0--0-0--0--0--0----------0--0--0--0-0--0--0--0--0--0--0--0-------|-----------------
   x3 x2 x3      x3 x2 x2    x2   x3 x2 x3   x2 x4 x2 x4 x2 x4 x2     x2
(The lower E is just to add some extra bass. Remove it at will.)

Album: "Presumed Guilty" - compilation
Song: "Et Hvitt Lys Over Skogen" (Track 6)
Notes: - Listen to the song for better timing.

                (1)          (2)
E|-------------------------------|--------------------------------------------------------|-
B|-------------------------------|--------------------------------------------------------|-
G|-------------------------------|--------------------------------------------------------|-
D|-2--2--2--2--0--2---2-0--2---2-|-2-2--0-0-2-----2---0--0---0-2-2--0-0-2-----2---0--0--0-|-
A|-2--2--2--2--3--3-3---3--3-3---|-2-2--4-5-2---2---2-4--5---5-2-2--4-5-2---2---2-4--5--7-|-
E|-0--0--0--0--1--1-----1--1-----|-0-0--2-3-0-0-------2--3---3-0-0--2-3-0-0-------2--3--5-|-
   x2 x4 x2 x4 x2       x2           x3               x6 x2      x3               x6 x2

                (3)                                        (4)
E|-------------------------------|-------------------------------------------------------|--
B|-------------------------------|-------------------------------------------------------|--
G|-------------------------------|-------------------------------------------------------|--
D|-----2-----0---------2-----0---|-----2-----0-----2-2--2-2--2-2--2-2--2-2--2-2--2-2--2--|--
A|---2---2-----3-----2---2-----3-|---2---2-----3---2-2--2-2--2-2--2-2--2-2--2-2--2-2--2--|--
E|-0-------1-----1-0-------1-----|-0-------1-----1-0-0--0-0--0-0--0-0--0-0--0-0--0-0--0--|--
                                                     x2   x2   x2   x2   x2   x2   x2 x8
                        (5)
E|--------------------------------------------------|---------------------------------------
B|--------------------------------------------------|---------------------------------------
G|--------------------------------------------------|---------------------------------------
D|-9--5--7-----9--5--7----9--5--7-----9--5--7----10-|----------------------------------------
A|-7--3--5--7--7--3--5----7--3--5--7--7--3--5----8--|---------------------------------------
E|----------5----------------------5----------------|---------------------------------------
   x2 x3 x3 x3 x3 x3 x2   x2 x3 x3 x3 x3 x3 x2

"Empty"

E|------------------------------------------------------------------------------------------
B|------------------------------------------------------------------------------------------
G|------------------------------------------------------------------------------------------
D|------------------------------------------------------------------------------------------
A|------------------------------------------------------------------------------------------
E|------------------------------------------------------------------------------------------